Топ-100

Кузя - Шняга шняжная на гитаре на одной струне

Решил показать вам как играть песню Кузи - Шняга шняжная на гитаре на одной струне. Песня стала вирусной после того, как персонаж сериала "Универ" Кузя сыграл и спел ее в одной из серий.

как звучит

играем на первой струне
(в скобочках играем на второй струне)

2-0-2-0-(1)--2-0-2-0-(1)
2-0-2-0-(0)--2-0-2-0-(0)
(1--1--1--1-1-1-1)
0--0--0--0-0-3-2--3--0
0--0--0-0--0-0

2-0-2-0-(1)--2-0-2-0-(1)
2-0-2-0-(0)--2-0-2-0-(0)
(1--1--1--1-1-1-1)
0----0-0-0-3-2--3--0--0--0
0-0-0-3-2--3--0--0--0
0-0-0-3-2--3--0

если вам что-то непонятно, вам сюда - как читать табулатуры для одной струны

Прикольная песня, которой вы теперь сможете развеселить компанию, сыграв ее на гитаре.

Дата публикации: 07.11.2018
Просмотров: 1300

Комментарии (0)
avatar